ISO-10303-21;
HEADER;
FILE_DESCRIPTION (( 'STEP AP214' ),
    '1' );
FILE_NAME ('GCC-411203.STEP',
    '2020-02-15T10:10:24',
    ( 'China' ),
    ( 'Microsoft' ),
    'SwSTEP 2.0',
    'SolidWorks 2018',
    '' );
FILE_SCHEMA (( 'AUTOMOTIVE_DESIGN' ));
ENDSEC;

DATA;
#1 = DIRECTION ( 'NONE',  ( -1.000000000000000000, 0.0000000000000000000, 0.0000000000000000000 ) ) ;
#2 = ORIENTED_EDGE ( 'NONE', *, *, #130, .F. ) ;
#3 = DIRECTION ( 'NONE',  ( -0.0000000000000000000, -0.0000000000000000000, -1.000000000000000000 ) ) ;
#4 = CARTESIAN_POINT ( 'NONE',  ( 0.0000000000000000000, 0.0000000000000000000, 0.0000000000000000000 ) ) ;
#5 = FILL_AREA_STYLE ('',( #134 ) ) ;
#6 =( NAMED_UNIT ( * ) SI_UNIT ( $, .STERADIAN. ) SOLID_ANGLE_UNIT ( ) );
#7 = EDGE_LOOP ( 'NONE', ( #139, #84 ) ) ;
#8 = DIRECTION ( 'NONE',  ( -0.0000000000000000000, -0.0000000000000000000, -1.000000000000000000 ) ) ;
#9 = SURFACE_STYLE_USAGE ( .BOTH. , #108 ) ;
#10 = CARTESIAN_POINT ( 'NONE',  ( -25.40000000000000924, 50.79999999999999716, 6.886987545090589968 ) ) ;
#11 = FACE_OUTER_BOUND ( 'NONE', #104, .T. ) ;
#12 =( NAMED_UNIT ( * ) SI_UNIT ( $, .STERADIAN. ) SOLID_ANGLE_UNIT ( ) );
#13 =( NAMED_UNIT ( * ) SI_UNIT ( $, .STERADIAN. ) SOLID_ANGLE_UNIT ( ) );
#14 = STYLED_ITEM ( 'NONE', ( #117 ), #69 ) ;
#15 = PRESENTATION_STYLE_ASSIGNMENT (( #9 ) ) ;
#16 = DIRECTION ( 'NONE',  ( 0.0000000000000000000, 0.0000000000000000000, 1.000000000000000000 ) ) ;
#17 = VERTEX_POINT ( 'NONE', #55 ) ;
#18 = PRODUCT_DEFINITION_SHAPE ( 'NONE', 'NONE',  #93 ) ;
#19 = ADVANCED_FACE ( 'NONE', ( #44 ), #42, .T. ) ;
#20 = CARTESIAN_POINT ( 'NONE',  ( 25.40000000000000924, -50.79999999999999716, 3.339037364728229651 ) ) ;
#21 = PLANE ( 'NONE',  #75 ) ;
#22 = CARTESIAN_POINT ( 'NONE',  ( -25.39999999999999858, 0.0000000000000000000, 0.0000000000000000000 ) ) ;
#23 = CARTESIAN_POINT ( 'NONE',  ( 25.39999999999998792, 50.79999999999999716, 6.886987545090589968 ) ) ;
#24 = APPLICATION_CONTEXT ( 'automotive_design' ) ;
#25 = CARTESIAN_POINT ( 'NONE',  ( 0.0000000000000000000, 0.0000000000000000000, 0.0000000000000000000 ) ) ;
#26 = AXIS2_PLACEMENT_3D ( 'NONE', #91, #133, #1 ) ;
#27 = CIRCLE ( 'NONE', #46, 25.39999999999999858 ) ;
#28 = EDGE_CURVE ( 'NONE', #17, #129, #88, .T. ) ;
#29 = EDGE_LOOP ( 'NONE', ( #2, #53 ) ) ;
#30 = SURFACE_STYLE_FILL_AREA ( #125 ) ;
#31 = CARTESIAN_POINT ( 'NONE',  ( -25.39999999999999858, 0.0000000000000000000, 5.113012454909410032 ) ) ;
#32 =( NAMED_UNIT ( * ) PLANE_ANGLE_UNIT ( ) SI_UNIT ( $, .RADIAN. ) );
#33 = ADVANCED_FACE ( 'NONE', ( #127 ), #100, .F. ) ;
#34 = ORIENTED_EDGE ( 'NONE', *, *, #87, .T. ) ;
#35 = STYLED_ITEM ( 'NONE', ( #15 ), #56 ) ;
#36 = APPLICATION_CONTEXT ( 'automotive_design' ) ;
#37 = DIRECTION ( 'NONE',  ( 1.000000000000000000, 0.0000000000000000000, 0.0000000000000000000 ) ) ;
#38 = SURFACE_STYLE_USAGE ( .BOTH. , #95 ) ;
#39 = FACE_OUTER_BOUND ( 'NONE', #7, .T. ) ;
#40 = UNCERTAINTY_MEASURE_WITH_UNIT (LENGTH_MEASURE( 1.000000000000000082E-05 ), #114, 'distance_accuracy_value', 'NONE');
#41 = ORIENTED_EDGE ( 'NONE', *, *, #54, .T. ) ;
#42 = CYLINDRICAL_SURFACE ( 'NONE', #119, 25.39999999999999858 ) ;
#43 = DIRECTION ( 'NONE',  ( 1.000000000000000000, 0.0000000000000000000, 0.0000000000000000000 ) ) ;
#44 = FACE_OUTER_BOUND ( 'NONE', #67, .T. ) ;
#45 =( LENGTH_UNIT ( ) NAMED_UNIT ( * ) SI_UNIT ( .MILLI., .METRE. ) );
#46 = AXIS2_PLACEMENT_3D ( 'NONE', #103, #16, #37 ) ;
#47 = VERTEX_POINT ( 'NONE', #22 ) ;
#48 = DIRECTION ( 'NONE',  ( 0.0000000000000000000, 0.0000000000000000000, 1.000000000000000000 ) ) ;
#49 =( BOUNDED_CURVE ( )  B_SPLINE_CURVE ( 3, ( #72, #20, #61, #31 ),
 .UNSPECIFIED., .F., .F. ) 
 B_SPLINE_CURVE_WITH_KNOTS ( ( 4, 4 ),
 ( 4.712388980384689674, 7.853981633974482790 ),
 .UNSPECIFIED. ) 
 CURVE ( )  GEOMETRIC_REPRESENTATION_ITEM ( )  RATIONAL_B_SPLINE_CURVE ( ( 1.000000000000000000, 0.3333333333333333703, 0.3333333333333333703, 1.000000000000000000 ) ) 
 REPRESENTATION_ITEM ( '' )  );
#50 = ORIENTED_EDGE ( 'NONE', *, *, #28, .T. ) ;
#51 = EDGE_CURVE ( 'NONE', #99, #47, #98, .T. ) ;
#52 = MECHANICAL_DESIGN_GEOMETRIC_PRESENTATION_REPRESENTATION (  '', ( #14 ), #81 ) ;
#53 = ORIENTED_EDGE ( 'NONE', *, *, #51, .F. ) ;
#54 = EDGE_CURVE ( 'NONE', #129, #99, #116, .T. ) ;
#55 = CARTESIAN_POINT ( 'NONE',  ( -25.39999999999999858, 0.0000000000000000000, 5.113012454909410032 ) ) ;
#56 = MANIFOLD_SOLID_BREP ( 'ÇÐ³ý-À­Éì1', #124 ) ;
#57 =( GEOMETRIC_REPRESENTATION_CONTEXT ( 3 ) GLOBAL_UNCERTAINTY_ASSIGNED_CONTEXT ( ( #140 ) ) GLOBAL_UNIT_ASSIGNED_CONTEXT ( ( #65, #137, #13 ) ) REPRESENTATION_CONTEXT ( 'NONE', 'WORKASPACE' ) );
#58 = DIRECTION ( 'NONE',  ( 0.0000000000000000000, 0.0000000000000000000, 1.000000000000000000 ) ) ;
#59 = FILL_AREA_STYLE_COLOUR ( '', #128 ) ;
#60 = ADVANCED_FACE ( 'NONE', ( #11 ), #107, .T. ) ;
#61 = CARTESIAN_POINT ( 'NONE',  ( -25.39999999999999858, -50.79999999999999716, 3.339037364728229651 ) ) ;
#62 = CARTESIAN_POINT ( 'NONE',  ( -25.39999999999999858, 0.0000000000000000000, 6.000000000000000000 ) ) ;
#63 = SHAPE_DEFINITION_REPRESENTATION ( #18, #69 ) ;
#64 = DIRECTION ( 'NONE',  ( 1.000000000000000000, 0.0000000000000000000, 0.0000000000000000000 ) ) ;
#65 =( LENGTH_UNIT ( ) NAMED_UNIT ( * ) SI_UNIT ( .MILLI., .METRE. ) );
#66 = AXIS2_PLACEMENT_3D ( 'NONE', #25, #48, #64 ) ;
#67 = EDGE_LOOP ( 'NONE', ( #50, #41, #102, #83 ) ) ;
#68 = VECTOR ( 'NONE', #3, 1000.000000000000000 ) ;
#69 = ADVANCED_BREP_SHAPE_REPRESENTATION ( 'GCC-411203', ( #56, #66 ), #57 ) ;
#70 = CARTESIAN_POINT ( 'NONE',  ( 25.39999999999999858, 3.110602869834276865E-15, 0.0000000000000000000 ) ) ;
#71 = DIRECTION ( 'NONE',  ( -1.000000000000000000, 0.0000000000000000000, 0.0000000000000000000 ) ) ;
#72 = CARTESIAN_POINT ( 'NONE',  ( 25.39999999999999858, 3.110602869834276865E-15, 5.113012454909410032 ) ) ;
#73 = DIRECTION ( 'NONE',  ( -0.0000000000000000000, -0.0000000000000000000, -1.000000000000000000 ) ) ;
#74 = CARTESIAN_POINT ( 'NONE',  ( -50.00000000000000000, -25.43167759485687185, 4.224918703830770284 ) ) ;
#75 = AXIS2_PLACEMENT_3D ( 'NONE', #74, #113, #76 ) ;
#76 = DIRECTION ( 'NONE',  ( 0.0000000000000000000, 0.9993908270190954291, 0.03489949670250874075 ) ) ;
#77 = ORIENTED_EDGE ( 'NONE', *, *, #79, .T. ) ;
#78 = PRESENTATION_LAYER_ASSIGNMENT (  '', '', ( #35 ) ) ;
#79 = EDGE_CURVE ( 'NONE', #17, #47, #80, .T. ) ;
#80 = LINE ( 'NONE', #62, #68 ) ;
#81 =( GEOMETRIC_REPRESENTATION_CONTEXT ( 3 ) GLOBAL_UNCERTAINTY_ASSIGNED_CONTEXT ( ( #40 ) ) GLOBAL_UNIT_ASSIGNED_CONTEXT ( ( #114, #112, #12 ) ) REPRESENTATION_CONTEXT ( 'NONE', 'WORKASPACE' ) );
#82 = CARTESIAN_POINT ( 'NONE',  ( 25.39999999999999858, 3.110602869834276865E-15, 6.000000000000000000 ) ) ;
#83 = ORIENTED_EDGE ( 'NONE', *, *, #79, .F. ) ;
#84 = ORIENTED_EDGE ( 'NONE', *, *, #87, .F. ) ;
#85 = PRODUCT_DEFINITION_CONTEXT ( 'detailed design', #24, 'design' ) ;
#86 = VECTOR ( 'NONE', #73, 1000.000000000000000 ) ;
#87 = EDGE_CURVE ( 'NONE', #129, #17, #49, .T. ) ;
#88 =( BOUNDED_CURVE ( )  B_SPLINE_CURVE ( 3, ( #111, #10, #23, #94 ),
 .UNSPECIFIED., .F., .T. ) 
 B_SPLINE_CURVE_WITH_KNOTS ( ( 4, 4 ),
 ( 1.570796326794896558, 4.712388980384689674 ),
 .UNSPECIFIED. ) 
 CURVE ( )  GEOMETRIC_REPRESENTATION_ITEM ( )  RATIONAL_B_SPLINE_CURVE ( ( 1.000000000000000000, 0.3333333333333333703, 0.3333333333333333703, 1.000000000000000000 ) ) 
 REPRESENTATION_ITEM ( '' )  );
#89 = SURFACE_STYLE_FILL_AREA ( #5 ) ;
#90 = DIRECTION ( 'NONE',  ( 0.0000000000000000000, 0.0000000000000000000, 1.000000000000000000 ) ) ;
#91 = CARTESIAN_POINT ( 'NONE',  ( 0.0000000000000000000, 0.0000000000000000000, 6.000000000000000000 ) ) ;
#92 = DIRECTION ( 'NONE',  ( 1.000000000000000000, 0.0000000000000000000, -0.0000000000000000000 ) ) ;
#93 = PRODUCT_DEFINITION ( 'Î´Öª', '', #105, #85 ) ;
#94 = CARTESIAN_POINT ( 'NONE',  ( 25.39999999999999858, 3.110602869834276865E-15, 5.113012454909410032 ) ) ;
#95 = SURFACE_SIDE_STYLE ('',( #30 ) ) ;
#96 = APPLICATION_PROTOCOL_DEFINITION ( 'draft international standard', 'automotive_design', 1998, #36 ) ;
#97 = PRODUCT_RELATED_PRODUCT_CATEGORY ( 'part', '', ( #110 ) ) ;
#98 = CIRCLE ( 'NONE', #135, 25.39999999999999858 ) ;
#99 = VERTEX_POINT ( 'NONE', #70 ) ;
#100 = PLANE ( 'NONE',  #106 ) ;
#101 = UNCERTAINTY_MEASURE_WITH_UNIT (LENGTH_MEASURE( 1.000000000000000082E-05 ), #45, 'distance_accuracy_value', 'NONE');
#102 = ORIENTED_EDGE ( 'NONE', *, *, #51, .T. ) ;
#103 = CARTESIAN_POINT ( 'NONE',  ( 0.0000000000000000000, 0.0000000000000000000, 0.0000000000000000000 ) ) ;
#104 = EDGE_LOOP ( 'NONE', ( #121, #34, #77, #118 ) ) ;
#105 = PRODUCT_DEFINITION_FORMATION_WITH_SPECIFIED_SOURCE ( 'ÈÎºÎ', '', #110, .NOT_KNOWN. ) ;
#106 = AXIS2_PLACEMENT_3D ( 'NONE', #122, #90, #92 ) ;
#107 = CYLINDRICAL_SURFACE ( 'NONE', #26, 25.39999999999999858 ) ;
#108 = SURFACE_SIDE_STYLE ('',( #89 ) ) ;
#109 = COLOUR_RGB ( '',0.9411764705882352811, 0.9607843137254902244, 0.9686274509803921573 ) ;
#110 = PRODUCT ( 'GCC-411203', 'GCC-411203', '', ( #115 ) ) ;
#111 = CARTESIAN_POINT ( 'NONE',  ( -25.39999999999999858, 0.0000000000000000000, 5.113012454909410032 ) ) ;
#112 =( NAMED_UNIT ( * ) PLANE_ANGLE_UNIT ( ) SI_UNIT ( $, .RADIAN. ) );
#113 = DIRECTION ( 'NONE',  ( 0.0000000000000000000, 0.03489949670250874075, -0.9993908270190954291 ) ) ;
#114 =( LENGTH_UNIT ( ) NAMED_UNIT ( * ) SI_UNIT ( .MILLI., .METRE. ) );
#115 = PRODUCT_CONTEXT ( 'NONE', #36, 'mechanical' ) ;
#116 = LINE ( 'NONE', #82, #86 ) ;
#117 = PRESENTATION_STYLE_ASSIGNMENT (( #38 ) ) ;
#118 = ORIENTED_EDGE ( 'NONE', *, *, #130, .T. ) ;
#119 = AXIS2_PLACEMENT_3D ( 'NONE', #132, #8, #71 ) ;
#120 = CARTESIAN_POINT ( 'NONE',  ( 25.39999999999999858, 3.110602869834276865E-15, 5.113012454909410032 ) ) ;
#121 = ORIENTED_EDGE ( 'NONE', *, *, #54, .F. ) ;
#122 = CARTESIAN_POINT ( 'NONE',  ( 0.0000000000000000000, 0.0000000000000000000, 0.0000000000000000000 ) ) ;
#123 = MECHANICAL_DESIGN_GEOMETRIC_PRESENTATION_REPRESENTATION (  '', ( #35 ), #138 ) ;
#124 = CLOSED_SHELL ( 'NONE', ( #19, #60, #33, #131 ) ) ;
#125 = FILL_AREA_STYLE ('',( #59 ) ) ;
#126 = PRESENTATION_LAYER_ASSIGNMENT (  '', '', ( #14 ) ) ;
#127 = FACE_OUTER_BOUND ( 'NONE', #29, .T. ) ;
#128 = COLOUR_RGB ( '',0.9411764705882352811, 0.9607843137254902244, 0.9686274509803921573 ) ;
#129 = VERTEX_POINT ( 'NONE', #120 ) ;
#130 = EDGE_CURVE ( 'NONE', #47, #99, #27, .T. ) ;
#131 = ADVANCED_FACE ( 'NONE', ( #39 ), #21, .F. ) ;
#132 = CARTESIAN_POINT ( 'NONE',  ( 0.0000000000000000000, 0.0000000000000000000, 6.000000000000000000 ) ) ;
#133 = DIRECTION ( 'NONE',  ( -0.0000000000000000000, -0.0000000000000000000, -1.000000000000000000 ) ) ;
#134 = FILL_AREA_STYLE_COLOUR ( '', #109 ) ;
#135 = AXIS2_PLACEMENT_3D ( 'NONE', #4, #58, #43 ) ;
#136 = APPLICATION_PROTOCOL_DEFINITION ( 'draft international standard', 'automotive_design', 1998, #24 ) ;
#137 =( NAMED_UNIT ( * ) PLANE_ANGLE_UNIT ( ) SI_UNIT ( $, .RADIAN. ) );
#138 =( GEOMETRIC_REPRESENTATION_CONTEXT ( 3 ) GLOBAL_UNCERTAINTY_ASSIGNED_CONTEXT ( ( #101 ) ) GLOBAL_UNIT_ASSIGNED_CONTEXT ( ( #45, #32, #6 ) ) REPRESENTATION_CONTEXT ( 'NONE', 'WORKASPACE' ) );
#139 = ORIENTED_EDGE ( 'NONE', *, *, #28, .F. ) ;
#140 = UNCERTAINTY_MEASURE_WITH_UNIT (LENGTH_MEASURE( 1.000000000000000082E-05 ), #65, 'distance_accuracy_value', 'NONE');
ENDSEC;
END-ISO-10303-21;
